12 Stones - Back Up Chords & Tabs

 

Back Up Chords & Tabs

12 Stones Chords & Tabs

Version: 2 Type: Tab 0 ratings
1 star 2 stars 3 stars 4 stars 5 stars
comments

Back Up Tab

   
Band- 12 Stones
Song- Back Up

Tuning: Drop C (C G C F A D)

this is really easy song


intro/chorous.....gtr 1
D|------------------------------||
A|------------------------------||
F|------------------------------||
C|--2------5------0------7------||
G|--2------5------0------7------||
C|--2------5------0------7------||

[ Tab from: http://www.guitartabs.cc/tabs/0-9/12_stones/back_up_tab_ver_2.html ]
continued intro....this is played while gtr 2 plays some wierd stuff with a 
phase shifter

D|--------------------------------||
A|--------------------------------||
F|--------------------------------||
C|--2-2-----5-5-----0-0-----7-7---||
G|--2-2-2/5-5-5-5/0-0-0-0/7-7-7-7-||
C|--2-2-2/5-5-5-5/0-0-0-0/7-7-7-7-||

verse


D|--------------------------------||
A|--------------------------------||
F|--------------------------------||
C|--------------------------------||
G|-2-2-x-2-2-xx-0-0-xx-2-2-xx-----||
C|-2-2-x-2-2-xx-0-0-xx-2-2-xx-----||
Comments