12 Stones - Back Up Chords & Tabs

 

Back Up Chords & Tabs

12 Stones Chords & Tabs

Version: 1 Type: Tab 0 ratings
1 star 2 stars 3 stars 4 stars 5 stars
comments

Back Up Tab

This is a great song by 12 stones e-mail me if any questions
Slimboyd20@yahoo.com

Drop D tuning-

Intro-
e--------------------
b--------------------
g--------------------
d--2--5--0--7--------
a--2--5--0--7--------
D--2--5--0--7--------  X3
[ Tab from: http://www.guitartabs.cc/tabs/0-9/12_stones/back_up_tab.html ]
Verse-Riff for both verses
e--------------------
a--------------------
g--------------------
d--22-xx-00----------
a--22-xx-00----------
D--22-xx-00----------x3
*Palm mute this

Chorus-
e----------------------
b----------------------
g----------------------
d--2-5-0-7-------------
a--2-5-0-7-------------
D--2-5-0-7-------------x4
Comments