11 23 - Avant Chords & Tabs

 

Avant Chords & Tabs

11 23 Chords & Tabs

Version: 1 Type: Tab 0 ratings
1 star 2 stars 3 stars 4 stars 5 stars
comments

Avant Tab

>=Hold
Intro
1-------------------------------------------------------
2-------------------------------------------------------
3-------------------------------------------------------
4---7-7---4-5-4-----5-4---------------------------------
5---5-5-5-------7-7-----5-5--9-9-7-9-0-0--5-5-9-7-5-----
6---------------5-5----------7-7----------3-3-----------

Solo
1-------------------------------------------------------
2-------------------------------------------------------
3-------------------------------------------------------
4---------2---------2---------2-------------------------
5---5-3-0---3---5-3---5---5-3---3-5-7-5-3---------------
6-------------3---------1-------------------------------
[ Tab from: http://www.guitartabs.cc/tabs/0-9/11_23/avant_tab.html ]
Lyric Intro
1--------------------------------------------------------
2--------------------------------------------------------
3--------------------------------------------------------
4---7->>>>-----------------------------------------------
5---5->>>>-7->>>>-9->>>>-5->>-7->>-----------------------
6----------5->>>>-7->>>>-3->>-5->>-----------------------

Verse
1--------------------------------------------------------
2--------------------------------------------------------
3--------------------------------------------------------
4---7----------------------------------------------------
5---5-X8-7----9----5----7--------------------------------
6--------5-X8-7-X8-3-X4-5-X4----------------------------- X2

Intro
Lyric Intro
Solo
Verse
Intro
Verse
Chorus
Intro 
Verse
Chorus
Lyric Intro
Comments