10 Years - Wasteland Chords & Tabs

 

Wasteland Chords & Tabs

10 Years Chords & Tabs

Version: 8 Type: Tab

Wasteland Tab

   
10 Years - Wasteland
The Autumn Effect - Track 6

Tuning: Open Dsus4 1/2 Flat
        Db Ab Db Gb Db Db   

Give credit to Jeff Perrin of Guitar One mag for this one! I suspected an alternate
tuning near the 1st and 2nd strings, but I never would have figured it out. This is
fully complete and deadly accurate.

INTRO
Guitar 1 - Clean
Db|---0--------0--(0)-----------|
Db|----------------0------------|
Gb|----------------x------------|
Db|----------------5------------|
Ab|1------1s3------5------------|
Db|1------1s3------5------------|

Both Guitars - Dist.
Db|---0---------0---------------|
Db|---0---------0---------------|
Gb|-----------------------------|
Db|---------5---------5-5-5-5---|
Ab|1------0-3-3-----0-3-3-3-3---|
Db|1------0---3-----0-----------|

1st VERSE 
Part A
Guitar 1 - Dist.
   ......................................................................
Db|------------------------------------------------------------------------|
Db|------------------------------------------------------------------------|
Gb|----------------------------------------------------------555-----------|
Db|5555888777---------5555888777-------------7777888888887777---777777777--|
Ab|----------88888888-----------88888888-1111------------------------------|
Db|------------------------------------------------------------------------|

Guitar 2 - Dist.
   ............. ... ................................. ............
Db|------------------------------------------------------------------------|
Db|------------------------------------------------------------------------|
Gb|------------------------------------------------------------------------|
Db|------------------------------------------------------------------------|
Ab|5555555555555-888-5555555555555888s1111111111111111-000000000333--------|
Db|5555555555555-888-5555555555555888s1111111111111111-000000000333-0-3p0--|

1st VERSE  
Part B            
Guitar 1 - Dist.
   ......................................................................
Db|------------------------------------------------------------------------|
Db|------------------------------------------------------------------------|
Gb|----------------------------------------------------------555-----------|
Db|5555888777---------5555888777-------------7777888888887777---777777777--|
Ab|----------88888888-----------88888888-1111------------------------------|
Db|------------------------------------------------------------------------|

Guitar 2 - Dist.
   ............. ... ................................. ............
Db|------------------------------------------------------------------------|
Db|------------------------------------------------------------------------|
Gb|------------------------------------------------------------------------|
Db|------------------------------------------------------------------------|
Ab|5555555555555-888-5555555555555888s1111111111111111-000000000333--------|
Db|5555555555555-888-5555555555555888s1111111111111111-000000000333-0-3p0--|

1st VERSE
Part C 
Guitars 1 and 2 play same as above; Guitar 3 fill indicated below.

Guitar 3 - Dist.
   Die...withdraw...remorse...naming...time..you've tried..can...turning
Db|----12-----------12----------------------------------12--------12-8x-|
Db|12------------12-----10-------------12----12----------------12-------|
Gb|------------------------10-------------------------------------------|
Db|---------------------------------------------------------------------|
Ab|---------------------------------------------------------------------|
Db|---------------------------------------------------------------------|
[ Tab from: http://www.guitartabs.cc/tabs/0-9/10_years/wasteland_tab_ver_8.html ]
1st VERSE
Part D
Guitar 1  Slowly release PM -v
   .....................................
Db|-------------------------------------| |---0--------0------------|
Db|-------------------------------------| |---0--------0------------|
Gb|-------------------------------------| |-------------------------|
Db|5555888777---------5555888777--------| |--------5--------5-5-5-5-|
Ab|----------88888888-----------88888888| |1-----0-3-3----0-3-3-3-3-|
Db|-------------------------------------| |1-----0---3----0---------|

Guitar 2 - Dist.
   ............. ... .............
Db|----------------------------------|    |---0--------0------------|
Db|-------------------------------00-|    |---0--------0------------|
Gb|-------------------------------xx-|    |-------------------------|
Db|-------------------------------55-|    |--------5--------5-5-5-5-|
Ab|5555555555555-888-5555555555555550|    |1-----0-3-3----0-3-3-3-3-|
Db|5555555555555-888-5555555555555550|    |1-----0---3----0---------|

CHORUS  2x
Guitar 1 - Dist.
Db|---------------------------------------------------0---------0-----------|
Db|---------------------------------------------------0---------0-----------|
Gb|-----------------121212121212121212121414141515--------------------------|
Db|5555555555555555-x-x-x-x-x-x-x-x-x-x-x-x-x-x-x-----------5--------5-5-5-5|
Ab|5555555555555555-1010101010101010101212121213130-1-----0-3-3----0-3-3-3-3|
Db|5555555555555555-------------------------------0-1-----0---3----0--------|

Guitar 2 Dist.
Db|---------------------------------------------------0---------0-----------|
Db|---------------------------------------------------0---------0-----------|
Gb|-------------------------------------------------------------------------|
Db|5555555555555555-5-5-5-5-5-5-5-5-5-5-5-5-5-5-5-----------5--------5-5-5-5|
Ab|5555555555555555-5-5-5-5-5-5-5-5-5-5-5-5-5-5-5-0-1-----0-3-3----0-3-3-3-3|
Db|5555555555555555-5-5-5-5-5-5-5-5-5-5-5-5-5-5-5-0-1-----0---3----0--------|

2nd VERSE
Play 1st VERSE Part A
Play 1st VERSE Part D
Play Chorus 2x

BRIDGE  4x
Guitar 1 - Dist.
Db|-----------------------------------|
Db|-----------------------------------|
Gb|-----------12121212-12s1010101010--|
Db|-----------x-x-x-x--x--x-x-x-x-x---|
Ab|5-5---5-5--10101010-10s8-8-8-8-8---|
Db|5-5---5-5--------------------------|

Guitar 2 - Dist.
Db|-----------------------------------|
Db|-----------------------------------|
Gb|-----------------------------------|
Db|-----------------------------------|
Ab|5-5---5-5--1-1-1-1--1s3-3-3-3-3-3--|
Db|5-5---5-5--1-1-1-1--1s3-3-3-3-3-3--|

BREAKDOWN
Guitar 1 - Clean
  Change.....Limbs..skin......Self......
Db|0-----------0--------0-----0---------------------------------------------|
Db|0-----------0--------0-----0---------------------------------------------|
Gb|x--------------------------x---------------------------------------------|
Db|5--------------------------5-----fbck comes in from-prev. chord-distorted|
Ab|5---------1------1s3-------5---------------------------------------------|
Db|5---------1------1s3-------5---------------------------------------------|

Both Guitars - Dist.
Db|---0---------0---------------|
Db|---0---------0---------------|
Gb|-----------------------------|
Db|---------5---------5-5-5-5---|
Ab|1------0-3-3-----0-3-3-3-3---|
Db|1------0---3-----0-----------|

Play CHORUS 1x

OUTRO
Both Guitars - Dist.
   ....................
Db|----------------------------------------0---------0-----------|
Db|---------------------0--0--0--0-000-----0---------0-----------|
Gb|---------------------x--x--x--x-xxx---------------------------|
Db|---------------------5--5--5--5-555----------5----------------|
Ab|55555555555555555555-5--5--5--5-555-0-1----0-3-3-----3330-55--|
Db|55555555555555555555-5--5--5--5-555-0-1----0---3-----3330-55--|