10 Years - Seasons To Cycles Chords & Tabs

 

Seasons To Cycles Chords & Tabs

10 Years Chords & Tabs

Version: 2 Type: Tab 0 ratings
1 star 2 stars 3 stars 4 stars 5 stars
comments

Seasons To Cycles Tab

OK this is my 1st tab ever but im prettie sure this is all correct so... 
e-mail me at   dasher13@satx.rr.com    for coments,etc


Intro, verse 1. Gtr 1.
e|---------------------------------------|
B|---------------------------------------|
G|---------------------------------------|
D|---4---6---4--------4---6---4----------|   repeat as nessecary
A|--4---4---3--------4---4---3-----------|
E|-2---2---2--------2---2---2------------|


Chorus
Gtr 1.
e|---------------------------------------|
B|---------------------------------------|
G|---------------------------------------|   reapeat 4 times
D|---4---6---4--------4---6---4----------|     
A|--4---4---3--------4---4---3-----------|
E|-2---2---2--------2---2---2------------|
                 
Gtr 2.
e|---------------------------------------|
B|---------------------------------------|
G|---------------------------------------|    Reapeat 3 times on the 4th
D|-44444444-44444444-2222222222222222----|    time stop after the middle 
A|-44444444-44444444-2222222222222222----|    part(where every sting is 
E|-22222222-44444444-2222222222222222----|    on fret 4)
[ Tab from: http://www.guitartabs.cc/tabs/0-9/10_years/seasons_to_cycles_tab_ver_2.html ]
****************************
Verse 2.
Gtr 1.
e|---------------------------------------|
B|---------------------------------------|
G|---------------------------------------|
D|---4---6---4--------4---6---4----------|   
A|--4---4---3--------4---4---3-----------|
E|-2---2---2--------2---2---2------------|

e|---------------------------------------|
B|---------------------------------------|
G|---------------------------------------|
D|---4---6---4--------4---6---4-----4b---|   after this part is played
A|--4---4---3--------4---4---3----4b-----|   repeat the part above.
E|-2---2---2--------2---2---2------------|

Repeat Chorus

Interlude
gtrs 1. and 2.
e|---------------------------------------|
B|---------------------------------------|
G|---------------------------------------|    on this part strok up and down
D|-44444444-44444444-2222222222222222----|    
A|-44444444-44444444-2222222222222222----|     
E|-22222222-44444444-2222222222222222----| 

Outro
e|---------------------------------------|
B|---------------------------------------|
G|---------------------------------------|
D|---4---6---4--------4---6---4----------|   till end
A|--4---4---3--------4---4---3-----------|
E|-2---2---2--------2---2---2------------|

ok thats it enjoy n if there are any unmarked parts just figue them out 
urself cuz most of the the parts r in the same area... peace
Comments