10 Years - Seasons To Cycles Chords & Tabs

 

Seasons To Cycles Chords & Tabs

10 Years Chords & Tabs

Version: 1 Type: Tab 0 ratings
1 star 2 stars 3 stars 4 stars 5 stars
comments

Seasons To Cycles Tab

   
10 Years - Seasons To Cycles
Tuning: low to high Db Ab Db Gb Bb eb
Questions or Comments send to: dragonsoldier2002@yahoo.com

Hey everyone, heres my tablature to Seasons To Cycles. Very easy song to play since they 
the same 3 chords for the entire song...so this should be no sweat...im not gonna do 
timing, just use those good ol' wise ears of yours to follow the song...good luck and enjoy

INTRO, VERSES, & OUTRO
eb---------------------------------------------------------------|
bb---------------------------------------------------------------|
gb---------------------------------------------------------------|
db-----5~~~-----------------------------7~~~---------------------|
ab---2--------------------------------5--------------------------|
db-2--------------------------------5----------------------------|

[ Tab from: http://www.guitartabs.cc/tabs/0-9/10_years/seasons_to_cycles_tab.html ]
-----------------------------------------------------------------|
-----------------------------------------------------------------|
-----------------------------------------------------------------|
-------4---------------------------------------------------------|
-----0-----------------------------------------------------------|
---0-------------------------------------------------------------|

REPEAT AS NECESSARY

CHORUS
-----------------------------------------------------------------|
-----------------------------------------------------------------|
-----------------------------------------------------------------|
---5-5-5-5-5-5-5-5--7-7-7-7-7-7-7-7--4-4-4-4-4-4-4-4-------------|
---2-2-2-2-2-2-2-2--5-5-5-5-5-5-5-5--0-0-0-0-0-0-0-0-------------|
---2-2-2-2-2-2-2-2--5-5-5-5-5-5-5-5--0-0-0-0-0-0-0-0-------------|

REPEAT AS NECESSARY

WITH FINAL CHORUS 3:04 - 3:36 PLAY WITH SECOND GUITAR

--------------------------------------------------------------------|
---8---10----8---8---8---10----8---7---7---8---7---8---7---10--8--7-|
-7---7---------7---7---7---------7-------7-------7-------7----------|
--------------------------------------------------------------------|
--------------------------------------------------------------------|
--------------------------------------------------------------------|

REMEMBER, ITS NOT TIMED...JUST FOLLOW YOUR EARS!!!
Comments