10 Inch Grin - Buttmudd Chords & Tabs

 

Buttmudd Chords & Tabs

10 Inch Grin Chords & Tabs

Version: 1 Type: Tab 0 ratings
1 star 2 stars 3 stars 4 stars 5 stars
comments

Buttmudd Tab

Intro
E------------
B------------
G5-----------
D5--5--7--3--
A3--5--7--3--  
e---3--5--1--

chorus/verse
[ Tab from: http://www.guitartabs.cc/tabs/0-9/10_inch_grin/buttmudd_tab.html ]
E--------------
B--------------
G--------------
D--5--7--9--3--
A--5--7--9--3--
e--3--5--7--1--

End
E-----
B-----
G-----
D--3--
A--3--
e--1--

Order
Intro x4
verse
inro x4
verse
End
Comments