100 Miligrams - Alone Chords & Tabs

 

Alone Chords & Tabs

100 Miligrams Chords & Tabs

Version: 1 Type: Tab 0 ratings
1 star 2 stars 3 stars 4 stars 5 stars
comments

Alone Tab

   
Alone


Cmaj x32010 and x4555x
Am   002210
Fmaj 133211
Gmaj 355433



Intro {Guitar 1}

E----------0------------------0---------------1-------------------3------
B--------1---1--------------1---1-----------1---1---------------3---4----
G------0-------0----------2------2--------2-------2-----------4-------4--
D----2-----------2------2----------2----3-----------3-------5-----------5
A--3---------------3--0-------------0-----------------0------------------
E-------------------------------------1------------------3---------------


Intro {Guitar 2}
[ Tab from: http://www.guitartabs.cc/tabs/0-9/100_miligrams/alone_tab.html ]
E---0---0-0-0--x--x-x--0---0-0-0--0--x-1--1-1-1--1--x-x--3---3-3-3--3-x-x
B---1---1-1-1--5--x-x--1---1-1-1--1--x-1--1-1-1--1--x-x--3---3-3-3--3-x-x
G---0---0-0-0--5--x-x--2---2-2-2--2--x-2--2-2-2--2--x-x--4---4-4-4--4-x-x
D---2---2-2-2--5--x-x--2---2-2-2--2--x-3--3-3-3--3--x-x--5---5-5-5--5-x-x
A---3---3-3-3--3--x-x--0---0-0-0--0--x-3--3-3-3--3--x-x--5---5-5-5--5-x-x
E---x---x-x-x--x--x-x--0---0-0-0--0--x-1--1-1-1--1--x-x--3---3-3-3--3-x-x


Verses and Chorus

Cmaj > Am > Fmaj > Gmaj


solo

E---------------------------------------------------8-----8---------
B-5--6--6/8-5---5-6-5-6---5--6--6/8-5---8-8/10---10--10--8-----------
G------------------------------------------------------------9--7--5-7h9p
D-----------------------------------------------------------------------
A-----------------------------------------------------------------------
E-----------------------------------------------------------------------
Comments